Карта сайта

Это автоматически сохраненная страница от 13.12.2008. Оригинал был здесь: http://2ch.hk/b/res/5334722.html
Сайт a2ch.ru не связан с авторами и содержимым страницы
жалоба / abuse: admin@a2ch.ru

Сбт 13 Дек 2008 20:18:07
Внезапно возраждают древние угадай-мелодия тред. Постим табы/ноты и угадываем песни.
Несложное:
E-------5-7-----7-|-8-----8-2-----2-|-0---------0-----|-----------------|
B-----5-----5-----|---5-------3-----|---1---1-----1---|-0-1-1-----------|
G---5---------5---|-----5-------2---|-----2---------2-|-0-2-2-----------|
D-7-------6-------|-5-------4-------|-3---------------|-----------------|
A-----------------|-----------------|-----------------|-2-0-0---0-------|
E-----------------|-----------------|-----------------|-----------------|


Сбт 13 Дек 2008 20:19:09
E-------5-7-----7-|-8-----8-2-----2-|-0---------0-----|-----------------|
B-----5-----5-----|---5-------3-----|---1---1-----1---|-0-1-1-----------|
G---5---------5---|-----5-------2---|-----2---------2-|-0-2-2-----------|
D-7-------6-------|-5-------4-------|-3---------------|-----------------|
A-----------------|-----------------|-----------------|-2-0-0---0-------|
E-----------------|-----------------|-----------------|-----------------|
fxd

Сбт 13 Дек 2008 20:20:08
stairway to heaven, очевидно же

Сбт 13 Дек 2008 20:20:35
Лестница в небо

Сбт 13 Дек 2008 20:20:36
>>5334744чет табы на металлику похожие

Сбт 13 Дек 2008 20:22:53
Цепеллин

Сбт 13 Дек 2008 20:25:48
Ну загадывайте, епта.

Сбт 13 Дек 2008 20:27:08
1|---0-5-7-8--7--5-|-8-8-7--7-----|-10-10--10-8-7-8---|-8-8--------7-7--7-4-5--|
2|-----------------|----------8-5-|-----------------6-|-----8--8-5-------------|
3|-----------------|--------------|-------------------|------------------------|
4|-----------------|--------------|-------------------|------------------------|
5|-----------------|--------------|-------------------|------------------------|
6|-----------------|--------------|-------------------|------------------------|
для самых маленьких

Сбт 13 Дек 2008 20:27:17
>>5334757ах ты ж пиздюк, гитару в штанах прячешь?

Сбт 13 Дек 2008 20:30:09
|-----------------------------|-----------------------------|
|--2--------------------2--3--|--2--------------------2--3--|
|--0----0-0-0-0-0-0-0-0-0--1--|--0----0-0-0-0-0-0-0-0-0--1--||-----------------------------|--5--------------------5-----|
|--6--------------------6--3--|--3----3-3-3-3-3-3-3-3-3--3--|
|--4----4-4-4-4-4-4-4-4-4--1--|--------------------------1--|

Сбт 13 Дек 2008 20:32:10
>>5334885
Нау.

Сбт 13 Дек 2008 20:33:47
Е|-7---7-10-7-5-3---2-|

Сбт 13 Дек 2008 20:33:54
 ^ ^
E E E E E E E E Q E Q Q. H
E-----------0--2--0--------|----------------------|-----------|
B--------3-----3-----3-----|--3-------3----3------|--L--------|
G-----2--------2--------2--|-------0-------0------|--L--------|
D--0-----------------------|----------------------|-----------|
A--------------------------|--3-------2----1------|--L--------|
E--------------------------|----------------------|-----------|
 ^ 
E E E E E E Q W
---------------------0----|--2----------------
--------------2h--3-------|--2----------------
-----2-----4--------------|--2----------------
--------2-----------------|--0----------------
--0-----------------------|-------------------
--------------------------|-------------------

Сбт 13 Дек 2008 20:34:42
>>5334927
Что за запись такая?

Сбт 13 Дек 2008 20:35:04
а как читать это, объясните

Сбт 13 Дек 2008 20:35:32
>>5334984
хуево скопипастилось

Сбт 13 Дек 2008 20:35:54
Делайте четыре отступа перед каждой строкой.
А если кто-то уже запосли криво, то копируйте в блокнот, там моноширинный текст.

Сбт 13 Дек 2008 20:36:17

Сбт 13 Дек 2008 20:38:07
>>5334975
I FUKKEN LOLED! >>5334973
Белые полоски >>5334993
Табулатура для гитары.

Сбт 13 Дек 2008 20:38:54
>>5334722Metallica - Nothing else matters

Сбт 13 Дек 2008 20:39:50
>>5335048
То что это табулатура я знаю, а как это читать?

Сбт 13 Дек 2008 20:41:08
>>5334927
Напомнило Carcass

Сбт 13 Дек 2008 20:41:09
E-5-5-4-4-2-2-2-4-5-5-4-4-2-2---------------------------
B----------------------------5-5-4-4-2-2-2-4-5-5-4-4-2-2Easiest.

Сбт 13 Дек 2008 20:42:44
>>5335081
Сверху - первая струна(тонкая), снизу - шестая(толстая), цифры означают, на каком ладу зажимать.

Сбт 13 Дек 2008 20:42:58
>>5335102
Carcass - Necroticism: Descanting The Insalubrious (1991) - 02. Corporal Jigsore Quandary

Сбт 13 Дек 2008 20:43:58
>>5335103вайт страйпс?

Сбт 13 Дек 2008 20:46:26
e|----------------------------------------------------------------------|
b|--------0--------0--1-3-1--0--------1--0-1-0--------1--0-1-0----------|
g|-----2--------2------------------2---------------2------------2-------|
d|--2--------2------------------3---------------3-----------------------|
a|----------------------------------------------------------------------|
E|----------------------------------------------------------------------|

Сбт 13 Дек 2008 20:47:05
>>5335103
во саду ли в огороде, имхо

Сбт 13 Дек 2008 20:48:41
>>5334975
Че-то мля из радио..

Сбт 13 Дек 2008 20:50:26
>>5335233
Угадун.

Сбт 13 Дек 2008 20:50:30
>>5335103
во саду ли, в огороде!

Сбт 13 Дек 2008 20:50:33
Пиздец, для меня ноты, аккорды - сложнее китайской грамоты.
Не знал, что столько людей в этом разбираются.

Сбт 13 Дек 2008 20:50:48
СУКИ ВНИМАНИЕ
http://lurkmore.ru/Wakaba
Для оформления больших блоков кода, а также кода с отступами, на каждой строке нужно поставить 4 пробела ( ) или один символ табуляции (который в ХТМЛ 	).

Сбт 13 Дек 2008 20:53:07
>>5334975
Ололо, долго вспоминал откуда это. Сначала даже показалось, что это что-то из Оргии Праведников. Вин.

Сбт 13 Дек 2008 20:53:46
>>5335254
Марио, епт!

Сбт 13 Дек 2008 20:55:32
moar

Сбт 13 Дек 2008 20:55:36
e|1-0-0-1-0-0-1-0-0-8-8-7-5-5-3-1-1-0--
b|------------------------------------3

Сбт 13 Дек 2008 20:57:15
Typical Thrash Metal Song
 E--0-0-0-0-0-0-0-0-0-0-0-Радномныйлад-0-0-0-Рандомныйлад-0-0-0

Сбт 13 Дек 2008 20:58:56
>>5335370
Правильно. Вот тебе подарок

Сбт 13 Дек 2008 21:00:20
e |-------------------|-------------|-------------------|-------------
B |-----0-1-----------|-------------|-----0-1-----------|-------------
G |-------------------|-----0-2-----|-------------------|-----0-2-----
D |---2-----2-0h2p0---|---------0---|---2-----2-0h2p0---|---------3-0-
A |-0---------------3-|---3-------3-|-0---------------3-|---3---------
E |-------------------|-1-----------|-------------------|-1-----------

Сбт 13 Дек 2008 21:00:32
A--------1-1-1-1--------4-4-4-4
E-1-1-1-1-------4-4-4-4--------

Сбт 13 Дек 2008 21:00:52
>>5335515
fade 2 black

Сбт 13 Дек 2008 21:00:57
E--10-6---6-10-6-10-11-10-5---5-10-8
B-------8-------------------6-------

Сбт 13 Дек 2008 21:01:35
>>5335515
РХЧП калифорникейшон

Сбт 13 Дек 2008 21:03:29
e|0-9-7-9-7-5|0-5-7-9-9-9-7-9-10-12|0-7-5-7-5-4|0-4-5-7-7-7-5-7-9

Сбт 13 Дек 2008 21:04:18
>>5335541Congrats!

Сбт 13 Дек 2008 21:04:31
>>5335518
Smells Like Teen Spirit

Сбт 13 Дек 2008 21:04:53
>>5335518
нервана

Сбт 13 Дек 2008 21:05:29
A|-14---12-11-10--|-------------------12-11-10--|
E|-12---10-9--8---|-0-0-12-0-0-11-0-0-10-9--8---|A|---------------------------------|
E|-0-0-7-0-0-6-0-0-5-0-4-0-3-0-2-0-|

Сбт 13 Дек 2008 21:05:32
>>5335577
риорита?

Сбт 13 Дек 2008 21:05:46
может кто-нибудь вспомнит
D|-0--0--0|-0--0--0|x8
A|5-55-55-|6-63-36-|

Сбт 13 Дек 2008 21:06:25
>>5335577
Елочка

Сбт 13 Дек 2008 21:07:00
>>5335631
Тысячу раз верно!

Сбт 13 Дек 2008 21:07:20
>>5335636
ах да, let ring

Сбт 13 Дек 2008 21:07:24
>>5335598
грац

Сбт 13 Дек 2008 21:08:16

Сбт 13 Дек 2008 21:10:29
|- - - - - - - - - - - - - - - -|- - - - - - - - - - - - - - - -|
|- - - - - - - - - - - - - - - -|- - - - - - - - - - - - - - - -|
|- - - - - - - - - - - - - - - -|- - - - - - - - - - - - - - - -|
|- - - - - - - - - - - - - - - -|- - - - - - - - - - - - - - - -|
|- - - - - - - - - - - - - - - -|- - - - - - - - - - - - - - - -|
|13 0= = = = 0 13= = 0 13= 13= =|13 0= = 0 13= = = 13 0= = = = 0|
|- - - - - - - - - - - - - - - -|- - - - - - - - - - - - - - - -|
|- - - - - - - - - - - - - - - -|- - - - - - - - - - - - - - - -|
|- - - - - - - - - - - - - - - -|- - - - - - - - - - - - - - - -|
|- - - - - - - - - - - - - - - -|- - - - - - - - - - - - - - - -|
|- - - - - - - - - - - - - - - -|- - - - - - - - - - - - - - - -|
|13= = 0 13= 13= = 13 0= = 0 13=|= = 13 0= = = = 0 13= = 0 13=13|

Сбт 13 Дек 2008 21:10:56
>>5335518
Smells Like Tenn Spirit

Сбт 13 Дек 2008 21:11:14
A--------0-0-------2---
E-0-0-1-2-2-2-2-1-0-0-0

Сбт 13 Дек 2008 21:11:43
>>5335783
Come as you are..

Сбт 13 Дек 2008 21:12:33
>>5335783
Come As You Are

Сбт 13 Дек 2008 21:12:37

Сбт 13 Дек 2008 21:13:10
>>5335628
горшочнег, лол. алсо таба кривая.

Сбт 13 Дек 2008 21:14:17
>>5335759
break stuff?

Сбт 13 Дек 2008 21:14:45
|--------------------6-----------8-------6-----------------------|
|--------8-------------------------------------------8-----------|
|6---------------------------------------------------------------|
|----------------------------------------------------------------| | | | | |--------------------2-----------4-------2-----------------------|
|--------3-------------------------------------------3-----------|
|5---------------------------------------------------------------|
|----------------------------------------------------------------|

Сбт 13 Дек 2008 21:15:01
Хватит постить новые, тут чтоки 4 неугаданных,
и блять ЧЕТЫРЕ ПРОБЕЛА ставьте. Говнари как я вас ненавижу!

Сбт 13 Дек 2008 21:15:53
>>5335831
Алсо, таба НЕ кривая.

Сбт 13 Дек 2008 21:16:04
А вот кто знает?E------------------------------------
B-----1--------1--------1---------0--
G-------------------------------0---0
D---2---2----3---3----2---2---0------
A-0-------0--------3--------3--------
E------------------------------------

Сбт 13 Дек 2008 21:16:40
>>5335868
где мля 4 неугаданые?

Сбт 13 Дек 2008 21:17:42
g|----6----|----5------
d|------8--|------6---.
a|--8-----8|--6-----6-.
e|6--------|4----------
Ну?

Сбт 13 Дек 2008 21:17:45
e:-----------------------------------------|
b:-----------------------------------------|
g:-----------------------------------------|
d:---------0--2-----2--1-----2--0-----0----|
a:0--2--3--------3--------2----------------|
E:-----------------------------------------|капча suwhat кабы намекает на нехватку металики

Сбт 13 Дек 2008 21:18:07
>>5335854
Подсказка, размер 25/16

Сбт 13 Дек 2008 21:18:37
>>5335886
кривая. люркай видео, где крик показывает риффы с альбома. первый аккорд на октаву ниже, в конце не второй а первый лад играется.

Сбт 13 Дек 2008 21:19:37
>>5334975 >>5335218 >>5335528
Насчитал 3 штуки

Сбт 13 Дек 2008 21:20:18
e |-----------------------|----------------------
B |-3-------3-------------|-2--------------------
G |-----2-----2-----------|---------3------------
D |-0-4---4---------------|-----4-----4--4-2-----
A |--------------4-2------|---4---4----------5-2-
E |------------------5-4--|-2--------------------

Сбт 13 Дек 2008 21:21:24
>>5335939
Ты не видео люркай, а снимай ушами. Алсо, кто сказал, что это партия кирка?

Сбт 13 Дек 2008 21:21:24
>>5335791
>>5335811
Молодцы!

Сбт 13 Дек 2008 21:22:11
a-fis-a-fis-a-fis-gisугадайте вот это, лол.алсо, табы для быдла.

Сбт 13 Дек 2008 21:23:12

Сбт 13 Дек 2008 21:28:42
e------------|-----------|
B-5-5-4-5-6-5|3-1-0-1-0--|
g------------|----------2|

Сбт 13 Дек 2008 21:28:57
угадывайте, суки.
let ring
D|-0--0--0|-0--0--0|x8
A|5-55-55-|6-63-36-|

Сбт 13 Дек 2008 21:29:07
Блять хороший тред превратился в дохуя школьников каждый со своей копипастой, причем не утруждающих себя правильной разметкой. А теперь тут еще и ЦП. Блядь, Двач я тебя не навижу!

Сбт 13 Дек 2008 21:30:31
>>5336144
мурка

Сбт 13 Дек 2008 21:31:19

Сбт 13 Дек 2008 21:31:25

Сбт 13 Дек 2008 21:32:39
>>5336199
Дващщую
На КВНо кстати похоже вначале

Сбт 13 Дек 2008 21:33:16
>>5336184
В точку!

Сбт 13 Дек 2008 21:37:08
A 8--8-8-9--8--8-6-6-6-8-8---13--13-13-14--13--13-11-11-11-13-13---8--8-8-9--8--8-6-6-6-8-8

Сбт 13 Дек 2008 21:46:28
D--------------------------|---------------2-0-------0
A---------2---2-1---1-0---0|---------2---2-----2---2--
E-0-2-3-5---3-----2-----1--|-0-2-3-5---3---------3----

Сбт 13 Дек 2008 21:48:35
Блять хороший тред превратился в дохуя школьников каждый со своей копипастой, причем не утруждающих себя правильной разметкой. А теперь тут еще и ЦП. Блядь, Двач я тебя не навижу!

Сбт 13 Дек 2008 21:48:38
>>5336153
Вот поэтому говнарей и не любят, они кроме "своей" музыки другую не только не признают, но и не знают.
Это блять как сектанты ваххабиты, думаю что их аллах самый мусульманский хотя овец сами трахают.

Сбт 13 Дек 2008 21:50:18
>>5336459
В пещере горного тролля

Сбт 13 Дек 2008 21:52:28
>>5335218
Что-то из аниме похоже, только не помню из какого..

Сбт 13 Дек 2008 21:59:55
>>5336537
"В пещере горного короля". А в награду за твою смекалку лоля подрочит тебе ножками.

Сбт 13 Дек 2008 22:00:54
Ващ тред гавно - я ухажу!

Сбт 13 Дек 2008 22:08:58
e-5-2-0---0-2---0---0-2-0---0-2|5-2-0---0-2---0---0-2-0----
B-------3-----0---3-------3----|------3-----0---3-------3-3

Сбт 13 Дек 2008 22:11:34
e:-10-12-10----|-8-----8--8--8--10----8--|----8--------10-12-10----|
B:----------10-|-10----10-10-10-10----10-|----10----10----------10-|
G:-------------|-------------------------|-------------------------|
D:-------------|-------------------------|-------------------------|
A:-------------|-------------------------|-------------------------|
E:-------------|-------------------------|-------------------------|
Серьезно

Сбт 13 Дек 2008 22:24:38
>>5337072
Это был неправильный ответ.

Сбт 13 Дек 2008 22:24:53
>>5336846Григ, пергюнт, утро?

Сбт 13 Дек 2008 22:31:04
Это была песня "Коммунальная квартира" группы "Дюна".

Сбт 13 Дек 2008 22:34:58
>>5337389
Ах тыж ёбаный, ты нахуй. И правда!

Сбт 13 Дек 2008 22:35:40
E-0--5-----------------------3--------3-----0----------3-2-1-
B------6-------------------------------------------3-2-2-----
G-2------7-5-4-5-4---4-2-0------3-2-3---3-2---3-2--0---2---2-
D----3---4----------------------2---0-0------------0-------0-
A-----------------------------------------4---4--------------
E-1----------2---3---0---1---0------------------------

Сбт 13 Дек 2008 22:37:17
e-----1-1-3-1|----0-0-1-0|----0-0-1-0|----0-0-1-3-1-0|
B---3--------|--1--------|--0--------|--1------------|
g-2----------|2----------|1----------|2--------------|

Сбт 13 Дек 2008 22:39:08
>>5337540Цыганочка, ёба! Тада-дада-дада-дада-дада-дада тадада!

Сбт 13 Дек 2008 22:42:14
>>5337540
угадал, хуля

Сбт 13 Дек 2008 22:43:02

Сбт 13 Дек 2008 22:45:22
>>5335893
promise

Сбт 13 Дек 2008 22:46:25
|-------------------------------------------------|
|-------------------------------------------------|
|-------------------------------------------------|
|---------------------------------------------1---|
|--2----4-------[7]-------------4-------2-----2---|
|--0----2-----------------------2-------0---------|
|
|----------------------12-----------------12------|
|------------12-----13----13-12------13------12---|
|---------12----------------------14--------------|
|-------------------------------------------------|
|-10-14-------------------------------------------|
|-------------------------------------------------|

Сбт 13 Дек 2008 22:54:43
бамп

Сбт 13 Дек 2008 23:04:34
E------------------|-------------------|
B---1-3-5-6-5-3-0-0|--0-1---------0----|
G-2-----------0-0-0|2---2-2-2-1-2-1-1-1|
D------------------|----------------2-2|
A-0----------------|----0--------------|
E---0-------------3|--------------0-0-0|

Сбт 13 Дек 2008 23:42:19
e|-----------------------------------|
B|------5-----5--8--5----------------|
G|---7-----7-------------------------|
D|-----------------------------------|
A|-----------------------------------|
E|-----------------------------------|

Сбт 13 Дек 2008 23:58:44
E E E E E E E E E. S E. S H
----------------------------|--------------------------|
----------------------------|--------------------------|
----------------------------|--------------------------|
----------------------------|--12-----11-----10--------|
----------------------------|--12-----11-----10--------|
--0--0--12--0--0--11--0--0--|--10------9------8--------| E E E E E E E E E E E E E E E E
--------------------------|--------------------------|
--------------------------|--------------------------|
--------------------------|--------------------------|
--------------------------|--------------------------|
--------------------------|--------------------------|
--0--0--7--0--0--6--0--0--|--5--0--4--0--3--0--2--0--|

Вск 14 Дек 2008 00:00:57
>>5338129 >>5339060 >>5339523
Сосите хуй говнари, просто сосите

Вск 14 Дек 2008 00:02:11
>>5339570
Лол.

Вск 14 Дек 2008 00:04:16
двач, ты любишь это
--0--0-----0--1--0------|------------------------|--5--5-4-5-7-5-4-5—-
B--1-----4---------------|--3--1--0--1--0---------|--5-----------------
G--2---------------------|--0--------------2------|--5-----------------
D--2---------------------|--2---------------------|--7-----------------
A--0---------------------|--2---------------------|--7-----------------
E------------------------|--0---------------------|--------------------

Вск 14 Дек 2008 00:10:50
----3---1---------------|---------3-----3--------|-----5-5----------—-
B-----1------------------|--------0-----3---------|--5----1-1----------
G----1-2-----------------|--------3-----3---------|--5---1--2----------
D---1---2----------------|--------2-1-2-3---------|--7-1----2----------
A--0-----1---------------|--------------1---------|--71-----2----------
E------------------------|-------3--3-2-1---------|--------------------

Вск 14 Дек 2008 00:16:14
-----------------------------------------------------------------------------|
-----------------------------------------------------------------------------|
6-8-10-10-8----8-8-6----6-6-5----6-8-6-----6-8-10-10-8-----1-13-5-6SS6-------|
-----------------------------------------------------------------------------|
-----------------------------------------------------------------------------|
-----------------------------------------------------------------------------|
-----------------------------------------------------------------------------|
-----------------------------------------------------------------------------|
1-6-8-5-----6-8-6------------------------------------------------------------|
-----------------------------------------------------------------------------|
-----------------------------------------------------------------------------|
-----------------------------------------------------------------------------|

Вск 14 Дек 2008 00:58:06
E--12-12---12------12---15--------------|
B---------------13------12--------------|
G--11-11---11---11-11---12------12------|
D---------------------------------------|
A-------------------------------10------|
E--10-10---10---10-10-------------------|

Вск 14 Дек 2008 00:59:12
>>5340736
Угадал легко, это RickRoll, так?

Вск 14 Дек 2008 01:06:56
>>5334975
Джингл, идущий с гитарпро.

Вск 14 Дек 2008 01:09:09
>>5340912 да. Теперь ты рикролльнут, мои поздравления.


← К списку тредов